Sign in to follow this  
Followers 0

Воля и Разум, Улица роз... Помогите подобрать вступление...

6 posts in this topic

Posted · Report post

Пожалуйста помогите подобрать вступление к песням Воля и Разум, Улица роз...

Заранее огромное спасибо... aprove.gif

0

Share this post


Link to post
Share on other sites

Posted · Report post

Улица роз

Aria___Ulitza_Roz.gp3

0

Share this post


Link to post
Share on other sites

Posted · Report post

Воля и Разум

E||----------------------------|--------------------------|
B||----------------------------|--------------------------|
G||----------------------------|--------------------------|
D||-----9--------9-----11--12--|-----9--------9-----7--9--|
A||-----7--------7-----9---10--|-----7--------7-----5--7--|
E||--0-----0--0-----0----------|--0-----0--0-----0--------|


                                                     
----------------------------|-----------------------|
----------------------------|-----------------------|
----------------------------|-----------------------|
-----9--------9-----11--12--|--9--------9/-------x--|
-----7--------7-----9---10--|--7--------7/-------x--|
--0-----0--0-----0----------|-----0--0--------------|


                                                        
----------------------------|--------------------------|
----------------------------|--------------------------|
----------------------------|--------------------------|
-----9--------9-----11--12--|-----9--------9-----7--9--|
-----7--------7-----9---10--|-----7--------7-----5--7--|
--0-----0--0-----0----------|--0-----0--0-----0--------|


                                                     
----------------------------|-----------------------|
----------------------------|-----------------------|
----------------------------|-----------------------|
-----9--------9-----11--12--|--9--------9/-------x--|
-----7--------7-----9---10--|--7--------7/-------x--|
--0-----0--0-----0----------|-----0--0--------------|
Улица роз
E||--10----------10----------10------|--10----------10----------10------|
B||--10----------10----------10------|--11----------11----------11------|
G||----------------------------------|----------------------------------|
D||------12--12------12--12------12--|------12--12------12--12------12--|
A||----------------------------------|----------------------------------|
E||----------------------------------|----------------------------------|


                                                                      
--10----------10----------10------|--10----------10----------10------|
--10----------10----------10------|--11----------11----------11------|
----------------------------------|----------------------------------|
------12--12------12--12------12--|------12--12------12--12------12--|
----------------------------------|----------------------------------|
----------------------------------|----------------------------------|


                                                                      
--10----------10----------10------|--10----------10----------10------|
--10----------10----------10------|--11----------11----------11------|
----------------------------------|----------------------------------|
------12--12------12--12------12--|------12--12------12--12------12--|
----------------------------------|----------------------------------|
----------------------------------|----------------------------------|


                                                                      
--10----------10----------10------|--10----------10----------10------|
--10----------10----------10------|--11----------11----------11------|
----------------------------------|----------------------------------|
------12--12------12--12------12--|------12--12------12--12------12--|
----------------------------------|----------------------------------|
----------------------------------|----------------------------------|


                                                                      
--10----------10----------10------|--10----------10----------10------|
--10----------10----------10------|--11----------11----------11------|
----------------------------------|----------------------------------|
------12--12------12--12------12--|------12--12------12--12------12--|
----------------------------------|----------------------------------|
----------------------------------|----------------------------------|

И gtp обоих песен.

____.rar

0

Share this post


Link to post
Share on other sites

Posted · Report post

версии игры есть разные.

допустим для улицы роз в две гитар будет так (покрайней мере мы с типами играли и нештяк рулит).

Улица роз

Гитара 1

(начиная с куплета)

|------------------|-----------------|
|--3-----3-----3---|-3-----3-----3---|
|--2-2-2-2-2-2-2-2-|-3-3-3-3-3-3-3-3-|  3 раза
|------------------|-----------------|
|------------------|-----------------|
|------------------|-----------------|


|------------------|-----------------|
|--5-----5-----5---|-2-----2-----2---|
|--4-4-4-4-4-4-4-4-|-0-0-0-0-0-0-0-0-|
|------------------|-----------------|
|------------------|-----------------|
|------------------|-----------------|

Гитара 2 

(должна играть одновременно с первой гитарой)

|--5-----5-----5---|-6-----6-----6---|
|--3-3-3-3-3-3-3-3-|-3-3-3-3-3-3-3-3-|
|------------------|-----------------|
|------------------|-----------------|
|------------------|-----------------|
|------------------|-----------------|
                                       тож 3 раза
|--7-----7-----7---|-4-----4-----4---|
|--5-5-5-5-5-5-5-5-|-2-2-2-2-2-2-2-2-|
|------------------|-----------------|
|------------------|-----------------|
|------------------|-----------------|
|------------------|-----------------|


|-----|-----|--------|--------|-----|-----|-----|-----|
|-----|-----|--------|--------|-----|--1--|-----|--3--|
|-----|-----|--5--4--|--2-----|-----|--3--|-----|--5--|
|--3--|--5--|--3--2--|--0--5--|--3--|--3--|--5--|--5--|
|--1--|--3--|--------|-----3--|--1--|-----|--3--|-----|
|-----|-----|--------|--------|-----|-----|-----|-----|

потом ето все дружно повторяем еще разок, походу там еще будут петь )))

А потом идет припев:

|----------------------------------|---------------------------------|
|----------------------------------|---------------------------------|
|--3-----3-----3---3-----3-----3---|---------------------------------|
|--3-----3-----3---3-----3-----3---|-3-----3-----3---3-----3-----3---|
|--1-1-1-1-1-1-1-1-1-1-1-1-1-1-1-1-|-3-----3-----3---3-----3-----3---|
|----------------------------------|-1-1-1-1-1-1-1-1-1-1-1-1-1-1-1-1-|
                                                                        2 раза сыграть
|----------------------------------|---------------------------------|
|----------------------------------|---------------------------------|
|--5-----5-----5---5-----5-----5---|-7-----7-----7---7-----7-----7---|
|--5-----5-----5---5-----5-----5---|-7-----7-----7---7-----7-----7---|
|--3-3-3-3-3-3-3-3-3-3-3-3-3-3-3-3-|-5-5-5-5-5-5-5-5-5-5-5-5-5-5-5-5-|
|----------------------------------|---------------------------------|

Струны что в дужках оприделите сами скока раз играть. Ок?

|----|-----|---|-----|-------|-------|-------|-------------------|
|----|-----|---|-----|-------|-------|-------|-------------------|
|----|-----|---|-----|-------|-------|-------|-------------------|
|--3-|-----|-2-|-----|-3-----|-5-----|-3-----|-5-------3-2-------|
|--1-|-(1)-|-0-|-(0)-|-1-(1)-|-3-(3)-|-1-(1)-|-3---3-5-----5-3---|
|----|-----|---|-----|-------|-------|-------|---5---------------|

Если вы сыграли песню по етому подбору и вам показалось что ето полный бред... СОВЕТ - настройте гитару biggrin.gif

0

Share this post


Link to post
Share on other sites

Posted · Report post

Короче к нам в Чернигов приезжала когда-то группа «Мастер»,

дак вот я выкупал как Алик играет в одну гитару песню «Воля и разум».

Много писать небуду - только самое главное.


E||----------------------------|--------------------------|
B||----------------------------|--------------------------|
G||----------------------------|--------------------------|
D||-----2--------2-----4---5---|-----2--------2-----0--2--|
A||-----2--------2-----4---5---|-----2--------2-----0--2--|
E||--0-----0--0-----0----------|--0-----0--0-----0--------|


                                                    
----------------------------|-----------------------|
----------------------------|-----------------------|
----------------------------|-----------------------|
-----2--------2-----4---5---|--2---------2----------|
-----2--------2-----4---5---|--2---------2----------|
--0-----0--0-----0----------|-----0--0--------------|
А там уже по кругу рулить да и все.... Ну почти все, ладно допишу припев розбиратся сколько раз играть аккорды надо розбиретесь сами (включите песню и послушаите как там играют). Если вам конешно на ухо 300 тонный ведмедь ненаступил rolleyes.gif

|------|------|-------------|------|--------|-------|
|------|------|-------------|------|--------|-------|
|-5--2-|-7--9-|-5--2-7------|-5--2-|-7--9-2-|-----4-|
|-5--2-|-7--9-|-5--2-7------|-5--2-|-7--9-2-|-----4-|
|-3--0-|-5--7-|-3--0-5------|-3--0-|-5--7-0-|-----2-|
|------|------|-------------|------|--------|-------|

0

Share this post


Link to post
Share on other sites

Create an account or sign in to comment

You need to be a member in order to leave a comment

Create an account

Sign up for a new account in our community. It's easy!


Register a new account

Sign in

Already have an account? Sign in here.


Sign In Now
Sign in to follow this  
Followers 0