Sign in to follow this  
Followers 0

GP,лучшие табы Арии и Кипелова делимся ссылками и гп-шками

5 posts in this topic

Posted · Report post

Железные табы

это начало, которое поможет многим так же как помогло мне.

0

Share this post


Link to post
Share on other sites

Posted · Report post

Беспечный ангел

0

Share this post


Link to post
Share on other sites

Posted · Report post

небо тебя найдет

0

Share this post


Link to post
Share on other sites

Posted · Report post

у меня ещё много ГП есть, только что-то не могу выложить сюда, если что пишите в аську 443104589

-1

Share this post


Link to post
Share on other sites

Posted · Report post

H E E E E E E E E E E E E

E||-----------------------|--------------------------|

B||-----------------------|--------------0-----------|

G||-----------------------|-----------0-----0--------|

D||-----------------------|--------2-----------2-----|

A||-----------------2--5--|-----2-----------------2--|

E||-----------3--5--------|--0-----------------------|

E E E E E E E E E E E E E E E E

--------------------------|--------------------------|

-----------1--------------|-----------3--------------|

--------0--------0-----0--|--------0--------0-----0--|

-----2--------2-----2-----|-----0--------0-----0-----|

--3-----------------------|--------------------------|

--------------------------|--3-----------------------|

E E E E E E E E E E E E E E E E

--------------------------|--------------------------|

-----------3--------------|--------------0-----------|

--------0-----------------|-----------0-----0--------|

-----0--------------------|--------2-----------2-----|

--------------------2--5--|-----2-----------------2--|

--3-----------3--5--------|--0-----------------------|

E E E E E E E E E E E E E E E E H E E E E

--------------------------|--------------3-----------|-----------------------|

-----------1--------------|-----------0-----0--------|---------------------3--|

--------0--------0-----0--|--------0-----------0-----|---------0-2--4-----|

-----2--------2-----2-----|-----0-----------------0--|--------------------0--|

--3-----------------------|--------------------------|--------------0--2-----|

--------------------------|--3-----------------------|--3--------3-----------|

E E E E E E E E E E E E E E E E

--2-----0--0--------------|--------------------------|

-----------------------0--|--3-----1--1-----------0--|

-----0-----------0--------|--------0--0--------0-----|

--------------2-----2-----|-----2-----------2--------|

--------------------------|--3-----------3-----------|

--0-----------------------|--------------------------|

E E E E E E E E E E E E E E E E

--------------------------|--------------------------|

-----------------------3--|----------------0--3--3--3--|

--------0--0--------0-----|--0-----0--2--------------|

-----0--0--0-----0--------|-----0--------------------|

--------------------------|--------------------------|

--3-----------3-----------|---------------3-----------|

E E E E E E E E E E E E E E E E

--2-----0--0--------------|--------------------------|

--------------------------|--3-----1--1--------0-----|

-----0-----------0--------|-----------------------0--|

--------------2-----2--0--|-----2-----------2--------|

--------------------------|--3-----------3-----------|

--0-----------------------|--------------------------|

E E E E S S S S E E E E E E E E E E

----------------2h-3-2-------|--------------------------|

--0--------------------3-----|--------3-----0--0--0--0--|

-----0--2--2--------------2--|-----2-----2--------------|

--0-----------0--------------|--0-----------0-----------|

-----------------------------|--------------------------|

-----------------------------|--------------------------|

E E E E E E E E E E E E E E E E

--------------------------|--------------------------|

-----------------------0--|-----------0--------0--0--|

-----2-----------2--0-----|--------0-----0-----------|

--------2-----2-----------|-----0-----------0--------|

--0--------0--------------|--------------------------|

--------------------------|--3-----------------------|

E E E E E E E S S E E E E E E E E

---------------------------|--------------0-----------|

---------------------------|-----------1--------1--------|

--2-----2-----2--2---------|-----2-----2--------2-----|

-----4-----4--------0--0-2-|--------------------------|

--5-----------5------------|--0----------------------0--|

---------------------------|--------------------------|

E E E E E E E E E E E E E E E E

--------------------------|--------------------------|

--------------------------|--0-----0--0--------------|

--------2--2--2-----0-----|-----------------0--------|

-----4-----------4-----4--|-----2--------2-----2--0--|

--5-----------------------|--------------------------|

--------------------------|--0-----------------------|

^ ^ v ^ v ^ v v

E E E E E E E E Q E E E E E E H E E E E

---------------------0-----|-------2--3--3--3--3--2--|--2--------0--0--0--0--|

-----1--1--1--1--1-----3--|-----3--3--3--3--3--3--|--3--------------------|

-----0--------------------|--------2--2--2--2--2--2--|--2--------------------|

-----2--------------------|--0----------------------|--0--------------------|

--3-----------------------|-------------------------|-----------------------|

--------------------------|-------------------------|-----------------------|

v

Q. E E E E E E E E E E E E E E E E E E E E E

--0------0--------------|--0-----------------------|--------------3--2--------|

--0---------0-----------|-----------1--------------|--3-----3-----------3-----|

--0------------0--------|-----0--------0-----0-----|-----2-----2-----------2--|

--2---------------2--0--|--------2--------2-----0--|--0-----------------------|

------------------------|--3-----------------------|--------------------------|

--0---------------------|--------------------------|--------------------------|

E E E E E E E E E E E E E E E E

--------------0--0--0--0--|--0-----------------------|

--------------------------|-----------1--------------|

-----2-----2--------------|--------0-----0-----0-----|

--0-----0-----0-----------|-----2-----------2-----0--|

--------------------------|--3-----------------------|

--------------------------|--------------------------|

E E E E E E E E E E E E E E E E

--2-----------------------|--3-----3-------------------|

-----------0--------------|--------0-------------------|

--------2-----2-----2-----|-----0----------------------|

-----1-----------1-----1--|-----------2p--0-----0h--2--|

--2-----------------------|-----------2p--0-----0h--2--|

--------------------------|--0---------------0---------|

v v v v v v v ^ v

E E E E E E E E Q E Q E E E E E E E E E E E

-----------------------3--|--3----3--3----0--0--0--|--------------------------|

--------------------0--0--|--1---------------------|-----3--3--3--------3-----|

-----------------0--0--0--|--0---------------------|-----------------2-----2--|

--2--2--2--2--2--2--2--2--|--2---------------------|--0-----------0-----------|

--2--2--2--2--2--2--2--2--|--3---------------------|--------------------------|

--0--0--0--0--0--0--0--0--|------------------------|--------------------------|

E E E E E E E E H E E E E E E E E E E E E

--0--0--0--3-----3--3-----|-----------------------|--------------------------|

--1--1--1--1-----------3--|-----------3--3--1--0--|--0--1-----------------1--|

--0--0--0--0--------------|-----------------------|--------2-----------2-----|

--------------2-----------|--0--------------------|-----------2-----2--------|

--3-----------------------|-----------------------|--0-----------0-----------|

--------------------------|-----------------------|--------------------------|

E E E E E E E E E E E E E E E E H E E E E

--------------------------|--------------------------|-----------0-----------|

--3-----------------3--0--|--------0-----------------|--------------3--0--3--|

--------0-----0-----------|--------------0-----0-----|-----------------------|

-----2-----2-----2--------|-----0-----0-----0-----0--|--------------------0--|

--3-----------------------|--------------------------|--------------0--2-----|

--------------------------|--3-----------------------|--3--------3-----------|

E E E E E E E E E E E E E E E E

--------------0-----------|--------------------------|

--3--5--5-----------------|--3--5--5-----5--3--3-----|

-----------0--------0-----|-----------0-----------0--|

-----------------5-----0--|--------------------------|

--------------------------|--3-----------------------|

--0-----------------------|--------------------------|

E E E E E E E E E E E E E E E E

--------------------------|--------------0-----------|

--3-----------------------|-----------------3--0--3--|

--------0-----0-----0-----|--------0-----------------|

-----0-----0-----0-----0--|-----0-----0-----------0--|

--------------------------|-----------------0--2-----|

--3-----------------------|--3-----------3-----------|

E E E E E E E E E E E E E E E E

--------------0-----------|--------------------------|

--3--5--5-----------------|--3--5--5-----5--3--3-----|

-----------0--------0-----|-----------0-----------0--|

-----------------5-----0--|--------------------------|

--------------------------|--3-----------------------|

--0-----------------------|--------------------------|

E E E E E E E E H E E E E H E E E E

--3-----------------------|-----------------------|-----------------------|

-----------3--------------|-----------------0--3--|-----------3--3--1--0--|

--------0-----0-----0-----|-----------0--2--------|-----------------------|

-----0-----------0-----0--|--------------------0--|-----------------------|

--------------------------|--------------0--2-----|-----------------------|

--3-----------------------|--3--------3-----------|--3--------------------|

E E E E E E E E E E E E E E E E

--------------------------|--------------------------|

--0--1-----------------1--|--3-----------------3--0--|

--------2-----------2-----|--------0-----0-----------|

-----------2-----2--------|-----2-----2-----2--------|

--0-----------0-----------|--3-----------------------|

--------------------------|--------------------------|

E E E E E E E E W

--------------------------|-------------------||

--------0-----------------|-------------------||

--------------0-----0-----|-------------------||

-----0-----0-----0-----0--|-------------------||

--------------------------|-------------------||

--3-----------------------|--3----------------||

Duration Legend

---------------

W - whole

H - half

Q - quarter

E - 8th

S - 16th

T - 32nd

X - 64th

. - note dotted

|-n-| - n-tuplets

Tablature Legend

----------------

L - tied note

x - dead note

g - grace note

(n) - ghost note

> - accentuded note

NH - natural harmonic

AH - artificial harmonic

TH - tapped harmonic

SH - semi harmonic

PH - pitch harmonic

h - hammer on

p - pull off

b - bend

br - bendRelease

pb - preBend

pbr - preBendRelease

brb - bendReleaseBend

n/ - tremolo bar dip

n - tremolo bar dive

-/n - tremolo bar Release up

/n - tremolo bar inverted dip

/n - tremolo bar return

-n - tremolo bar Release down

S - shift slide

s - legato slide

/ - slide into from below or out of upwards

- slide into from above or out of downwards

~ - vibrato

W - wide vibrato

tr - trill

TP - tremolo picking

T - tapping

S - slap

P - pop

< - fade in

^ - brush up

v - brush down

0

Share this post


Link to post
Share on other sites

Create an account or sign in to comment

You need to be a member in order to leave a comment

Create an account

Sign up for a new account in our community. It's easy!


Register a new account

Sign in

Already have an account? Sign in here.


Sign In Now
Sign in to follow this  
Followers 0