Sign in to follow this  
Followers 0

Беспечный ангел какими пальцами играть перебор

20 posts in this topic

Posted (edited) · Report post

подскажите, какими пальцами играть вот этот кусок (самое начало)

А дальше я уж сам разбирусь...

||----------------------|--------------------------|--------------------------|
||----------------------|--------------0-----------|-----------1--------------|
||----------------------|-----------0-----0--------|--------0--------0-----0--|
||-------------------0--|--------2-----------2-----|-----2--------2-----2-----|
||-------------0--2-----|-----2-----------------2--|--3-----------------------|
||----------3-----------|--0-----------------------|--------------------------|

Edited by truver
0

Share this post


Link to post
Share on other sites

Posted · Report post

как удобно - так и играй

0

Share this post


Link to post
Share on other sites

Posted · Report post

Лучше всего пальцами рук megalol.gif

0

Share this post


Link to post
Share on other sites

Posted (edited) · Report post

это большим пальцем/дальше по порядку Б,У,С,б,б/ дальше сам поймёшь

||----------------------|--------------------------|--------------------------|
||----------------------|--------------0-----------|-----------1--------------|
||----------------------|-----------0-----0--------|--------0--------0-----0--|
||-------------------0--|--------2-----------2-----|-----2--------2-----2-----|
||-------------0--2-----|-----2-----------------2--|--3-----------------------|
||----------3-----------|--0-----------------------|--------------------------|

Edited by truver
0

Share this post


Link to post
Share on other sites

Posted · Report post

как удобно - так и играй

Никак не удобно! smile.gif

Лучше всего пальцами рук :lol 

megalol.gifthumbup.gifpunk.gif

Спасибо!!! До этого ногами играл megalol.gif

это большим пальцем/дальше по порядку Б,У,С,б,б/ дальше сам поймёшь

дак это ж неудобно жуть!!! безымянный дергает струну, потом следующую, потом опять предыдущую.... Можит как нить попроще моно?

0

Share this post


Link to post
Share on other sites

Posted · Report post

по очереди - большой, указательный, средний, безымяный, мизинец.

в начале где 5-я струна открытая, а потом на 2-м ладу - я оба раза указательным. Там где перебор на аккорд D - там до мизинца дело не доходит.

А если играть медиатором, то вопрос, какими пальцами играть отпадет whistle.gif

0

Share this post


Link to post
Share on other sites

Posted · Report post

Хм.....а если медиатором???? ну или вниз большим, вверх указательным, тоесть не щипать, а проскальзовать по струнам, попробуй медиаторм....

0

Share this post


Link to post
Share on other sites

Posted · Report post

Пацаны, вопщем не получается у меня играть этим перебором...

Я своим перебором играю smile.gif

Зацените! (см. файл) Нормально? Имхо, почти как у Кипелыча smile.gif))))))))))

Выложите своё исполнение этой песни, интересно послушать кто как ее играет.

Bespechniy_angel.mp3

0

Share this post


Link to post
Share on other sites

Posted · Report post

Сами Арийцы медиатором играют smile.gif

0

Share this post


Link to post
Share on other sites

Posted · Report post

Юрец.

не так играешь, не красиво звучит

0

Share this post


Link to post
Share on other sites

Posted · Report post

не так играешь, не красиво звучит

Мне тож не понравилось. Там же все просто? Зачем что-то выдумывать? По моему единственная сложность может возникнуть тут на первой струне

-3-2h3p2- но это уже дело навыка. Зачем изобретать велосипед?

0

Share this post


Link to post
Share on other sites

Posted · Report post

Подскажите, пожалуйста, соло, которое играется после припева первый раз (перед вторым куплетом)...

0

Share this post


Link to post
Share on other sites

Posted · Report post

Выложите своё исполнение этой песни, интересно послушать кто как ее играет.

Вот собвственно, проще некуда))))

у меня свой стиль и переборы любые я играю большим пальцем)))) хотя могу и остальными))))

goingtotherun.mp3

0

Share this post


Link to post
Share on other sites

Posted · Report post

а ведь реальна дело вкуса..вот как я играю , не видел такого метода ни на одном сайте

я например вступление играю вот так(да и всю песню точно так же) :

E-----------------0---------------0---------------3----------|
B---------------0---0-----------1---1-----------0---0--------|
G-------------0-------0-------0-------0-------0-------0------|
D-------0---2-----------2---2-----------2---0-----------0----|
A---0-2---2---------------3---------------2---------------2--|
E-3----------------------------------------------------------|
                               в первый раз – |        2x        |
                     затем, повторить всё , но - |        1 раз      |

whistle.gif

0

Share this post


Link to post
Share on other sites

Posted · Report post

послушал ваши записи и мне показалось чет это на ДДТ Метель больно похоже покрайне мере начало Ария точнг так играет? wink.gif

0

Share this post


Link to post
Share on other sites

Posted · Report post

Нииби моск сам сибе! Играй медиатором как йа!

0

Share this post


Link to post
Share on other sites

Posted · Report post

вот сопсна запись...

P.S. - не судите строга rolleyes.gif играю два месяца на отечественной классике...да и микрофон... crybaby.gif

pr.7z

0

Share this post


Link to post
Share on other sites

Posted · Report post

мдям.... хоть струны посильнее прижимай, шоб не 3венели и поживей, а так нормально punk.gif

0

Share this post


Link to post
Share on other sites

Posted · Report post

Эээм .А почиму такое мерзкое звучание?

0

Share this post


Link to post
Share on other sites

Posted · Report post

отбой тревоги...как играть нашла в соседнем форуме..

0

Share this post


Link to post
Share on other sites

Create an account or sign in to comment

You need to be a member in order to leave a comment

Create an account

Sign up for a new account in our community. It's easy!


Register a new account

Sign in

Already have an account? Sign in here.


Sign In Now
Sign in to follow this  
Followers 0