Sign in to follow this  
Followers 0

Кино - Последний герой Каким боем играть?

39 posts in this topic

Posted · Report post

Подскажите как играть вступление?

0

Share this post


Link to post
Share on other sites

Posted · Report post

Если объяснять проще, то Em ввниз ввер ввниз (быстро) потом зажимаешь 1 ую струну на 3 ладу.ввниз и потом 1 струна на 2 ладу (EM не отпускаешь) потом зажимаешь D 3 раза ввниз и и Dsus 4 ( то же что и D тока 1 струна на 3 ладу) 1 раз вниз D, Dsus 4//Если не понят объясню табами

0

Share this post


Link to post
Share on other sites

Posted · Report post

TABS:

Variant dlya 1oy akustiki - versiya s "Akusti4eskogo kontserta" Tsoy'a (1987)

       DsuD4                       Em     G      Bm     Bm    
E||----3/-2---------3/-2--------|------0------3------2--0----|
B||----3----3-------3----3------|------0------3------3--3----|
G||----2-------2----2-------2---|------0------4--4-4-4--4----|
D||----0------------0-----------|----2-2--5-5-5--4-4-4--4----|
A||-----------------------------|--2-2-2--5-5-5--2-2-2--2----|
E||-----------------------------|--0-0-0--3-3-3--------------|


  D              Dsus4       Em     G      Bm     Bm    
--2----2--2--2-2-3--2--3--|------0------3------2--0----|
--3----3--3--3-3-3--3--3--|------0------3------3--3----|
--2----2--2--2-2-2--2--2--|------0------4--4-4-4--4----|
--------------------------|----2-2--5-5-5--4-4-4--4----|
--------------------------|--2-2-2--5-5-5--2-2-2--2----|
--------------------------|--0-0-0--3-3-3--------------|


                             Em     G      Bm     Bm    
--2----2--2--2-2-3--2--3--|------0------3------2--0----|
--3----3--3--3-3-3--3--3--|------0------3------3--3----|
--2----2--2--2-2-2--2--2--|------0------4--4-4-4--4----|
--------------------------|----2-2--5-5-5--4-4-4--4----|
--------------------------|--2-2-2--5-5-5--2-2-2--2----|
--------------------------|--0-0-0--3-3-3--------------|


                             Em     G      Bm     Bm    
--2----2--2--2-2-3--2--3--|------0------3------2--0----|
--3----3--3--3-3-3--3--3--|------0------3------3--3----|
--2----2--2--2-2-2--2--2--|------0------4--4-4-4--4----|
--------------------------|----2-2--5-5-5--4-4-4--4----|
--------------------------|--2-2-2--5-5-5--2-2-2--2----|
--------------------------|--0-0-0--3-3-3--------------|
                                   
------2--2--2----------2--2--|
--3-3-3--3--3--3-3-3-3-3--3--|
--2-2-2--2--2--2-2-2-2-2--2--|
--0-0-0--0--0--0-0-0-0-0--0--|
-----------------------------|
-----------------------------|
--- Variant dlya akustiki - rhythm partii pri dvuh gitarah - versiya alboma "Posledniy geroy" (1989)
                 Em                                              
E||--------------0--0--||---0----------------|------------------|
B||--------------0--0--||---0----------------|------------------|
G||--------------0--0--||*--0----------------|------------------|
D||--------------2--2--||*--2----------------|------------------|
A||--------------2--2--||---2----------------|------------------|
E||--------------0--0--||---0----------------|------------------|


  D                                    Em                         
--2--------2------3--|--3----2----3----0-----|--0----------------|
--3--------3------3--|--3----3----3----0--0--|--0----------------|
--2--------2------2--|--2----2----2----0--0--|--0----------------|
--0--------0---------|--0----0----0----2--2--|--2----------------|
---------------------|--------------------2--|--2----------------|
---------------------|-----------------------|--0----------------|


                     D                                    Em       
------------------|--2--------2------3--|--3----2----3----0--0---||
------------------|--3--------3------3--|--3----3----3----0--0---||
------------------|--2--------2------2--|--2----2----2----0--0--*||
------------------|--0--------0---------|--0----0----0----2--2--*||
------------------|---------------------|--------------------2---||
------------------|---------------------|------------------------||


  D                                              Em                  
--2--------2------3--|--3----2----0----2----||---0--------0----0----|
--3--------3------3--|--3----3----3----3----||---0--------0----0----|
--2--------2------2--|--2----2----2----2----||*--0--------0----0----|
--0--------0---------|--0----0----0----0----||*--2--------2----2----|
---------------------|----------------------||---2--------2----2----|
---------------------|----------------------||---0------------------|


  Bm             G        G                     D              G        
------------2----------|--3--------3----3----|--2----2----2-----------||
--3----3----3----0--0--|--3--------3----3----|--3----3----3----0--0---||
--4----4----4----0--0--|--4--------4----4----|--2----2----2----0--0--*||
--4----4----4----0--0--|--5--------5----5----|--0----0----0----0--0--*||
--2----2----2----------|--5--------5----5----|------------------------||
-----------------------|--3------------------|------------------------||

0

Share this post


Link to post
Share on other sites

Posted · Report post

Пахан, если не трудно,выложи табы aprove.gif

0

Share this post


Link to post
Share on other sites

Posted · Report post

Я вступление так играю :

на em : вниз, вниз, вверх, вниз - 2раза вниз

на d : 3 раза вниз, (вниз, вверх, вниз) - 2раза и вниз

по-моему неплохо звучит

0

Share this post


Link to post
Share on other sites

Posted · Report post

Вступление не знаю, как играть, но саму песню типа как в прикрепленном файле.

kino_nocJIeDHui_repoi.gp4

0

Share this post


Link to post
Share on other sites

Posted · Report post

Пахан вступление классно написал, я начало тоже так играю, а вот после Em и прижатой второй струны на первом ладу ещё проигрываю G и Bm, а затем D (играю, попеременно прижимая и отжимая 1-ю струну на третьем ладу).

0

Share this post


Link to post
Share on other sites

Posted · Report post

А ещё проще - Em - G - C - D - Dsus4.

0

Share this post


Link to post
Share on other sites

Posted · Report post

вот теперь моё послушайте)

_______________.mp3

0

Share this post


Link to post
Share on other sites

Posted · Report post

вот теперь моё послушайте)

Шедевр! От Цоя трудно отличить!

Слухай, научи меня так сыграть! )

0

Share this post


Link to post
Share on other sites

Posted · Report post

Объясните мне, плиза, какими пальцами играть:

-=Вступление=-

1|--0--0--0--------3-------2-------0---|-2-3-2-3-2-3-2-3-2-

2|--0--0--0-------0-------0-------0----|-3-3-3-3-3-3-3-3-3-

3|--0--0--0------0-------0-------0-----|-2-2-2-2-2-2-2-2-2-

4|--2--2--2-----2-------2-------2------|-0-0-0-0-0-0-0-0-0-

5|--2--2--2----2-------2-------2-------|-0-0-0-0-0-0-0-0-0-

6|--0--0--0---0-------0-------0--------|-0-0-0-0-0-0-0-0-0-

Ем понятно - факом и безымянным smile.gif

А 3-2-0 чем? Мизинцем што-ли smile.gif

0

Share this post


Link to post
Share on other sites

Posted · Report post

юрец, а каким боем играть, не подскажишь??? вступление клевое)))

0

Share this post


Link to post
Share on other sites

Posted · Report post

Юрец., абсолютно верно - мезинцем. Кстате вот этот вариант, что ты выложил очень неплох yes.gif Вот как это звучит (для прослушки переименнуй расширение файла в .wma)

11231___122.wmaX

0

Share this post


Link to post
Share on other sites

Posted · Report post

Шедевр! От Цоя трудно отличить!

Слухай, научи меня так сыграть! )

noname играет вот так (как и я):

Em(вниз, вверх, вниз) G (вниз) D (вниз), потом вверх по незажатым струнам а потом уже и D и Dsus4...

0

Share this post


Link to post
Share on other sites

Posted · Report post

noname играет вот так (как и я):

Em(вниз, вверх, вниз) G (вниз) D (вниз), потом вверх по незажатым струнам а потом уже и D и Dsus4...

Em(вниз, вверх, вниз) G (вниз) Hm (вниз), потом вверх по незажатым струнам а потом уже и D и Dsus4...

вот так)

0

Share this post


Link to post
Share on other sites

Posted · Report post

gortuar, что за бред опять???

QUOTE (gortuar @ Пн, 12 Февраль 2007, 9:58) 

QUOTE (Юрец. @ Пн, 03 Апрель 2006, 8:43)

QUOTE (noname @ Ср, 15 Март 2006, 13:23)

вот теперь моё послушайте)

Шедевр! От Цоя трудно отличить!

Слухай, научи меня так сыграть! )

noname играет вот так (как и я):

Em(вниз, вверх, вниз) G (вниз) Hm (вниз), потом вверх по незажатым струнам а потом уже и D и Dsus4... [code]

у цоя нет аккорда G и Hm в вступления, просто на аккорде Em есть фишка с мизинцем сначала на 3 ладу, потом на 2! а потом D и Dsus4!

0

Share this post


Link to post
Share on other sites

Posted · Report post

gortuar, что за бред опять???

QUOTE (gortuar @ Пн, 12 Февраль 2007, 9:58) 

QUOTE (Юрец. @ Пн, 03 Апрель 2006, 8:43)

QUOTE (noname @ Ср, 15 Март 2006, 13:23)

вот теперь моё послушайте)

Шедевр! От Цоя трудно отличить!

Слухай, научи меня так сыграть! )

noname играет вот так (как и я):

Em(вниз, вверх, вниз) G (вниз) Hm (вниз), потом вверх по незажатым струнам а потом уже и D и Dsus4... [code]

у цоя нет аккорда G и Hm в вступления, просто на аккорде Em есть фишка с мизинцем сначала на 3 ладу, потом на 2! а потом D и Dsus4!

а как насчет 2го поста про акустический концерт?

0

Share this post


Link to post
Share on other sites

Posted · Report post

1|--0--0--0--------3-------2-------0---|-2-3-2-3-2-3-2-3-2-

2|--0--0--0-------0-------0-------0----|-3-3-3-3-3-3-3-3-3-

3|--0--0--0------0-------0-------0-----|-2-2-2-2-2-2-2-2-2-

4|--2--2--2-----2-------2-------2------|-0-0-0-0-0-0-0-0-0-

5|--2--2--2----2-------2-------2-------|-0-0-0-0-0-0-0-0-0-

6|--0--0--0---0-------0-------0--------|-0-0-0-0-0-0-0-0-0-

Объясните пожалуйста, как играть чередование D и Dsus4 yes.gif

0

Share this post


Link to post
Share on other sites

Posted · Report post

kinoshnik я завтра тебе расскажу как чередуется!

0

Share this post


Link to post
Share on other sites

Posted · Report post

Em (000220) вниз вверх вниз

Em с мизинцем (300220) вниз

Em с мизинцем (200220) вниз

Em (000220) вниз

D (232000) вниз вниз вверх вниз вверх

Dsus4 (332000) вниз

D (232000) вверх

Dsus4 (332000) вниз

вроде так, рука набита на это уже, а уловить скоко раз вниз вверх играешь трудно, но вроде я так играю как написал!

pg.mp3

0

Share this post


Link to post
Share on other sites

Posted · Report post

После Em ,когда начинаешь играть D после первого удара вниз пауза,послушай оригинальную акустическую версию,а то у тебя вперемешку в конце идёт

0

Share this post


Link to post
Share on other sites

Posted · Report post

послушай оригинальную акустическую версию

Да но их как минимум пять smile.gif

0

Share this post


Link to post
Share on other sites

Posted · Report post

А вообще очень странно получается. Аккорды D и Dsus берутся на 4-х струнах. И звучать это будет более чище, а так ещё открытые басы звучат.

Напишити, пожулайста, как играть чередование D и Dsus.

Needles, спасибо, но что-то у меня так не получается =(

0

Share this post


Link to post
Share on other sites

Create an account or sign in to comment

You need to be a member in order to leave a comment

Create an account

Sign up for a new account in our community. It's easy!


Register a new account

Sign in

Already have an account? Sign in here.


Sign In Now
Sign in to follow this  
Followers 0