Svast

Пользователи
  • Content count

    1
  • Joined

  • Last visited


Community Reputation

0 Обычный

About Svast

  • Rank
    Новичок
  • Birthday 02/07/1986

Svast's Activity

  1. Svast added a post in a topic: Пилот - Рядом подскажите как играть   

    Народ, если есть у кого GTP этой песни или кто-то может бой подсказать буду очень признателен
    • 0
  2. Svast added a post in a topic: Химия акустика как играть? видео прилагается   

    а можете бой куплета расписать...
    Читал на форуме кто играет V_V^_^V^
    А кто-т писал вниз вниз вниз,вверх вниз вверх вниз-до конца строки

    Вобщем как все же играет и на каких ударах аккорды меняются - че-то вобще вилы какие-то получаются...
    • 0
  3. Svast added a post in a topic: 7Раса - Корабль Бумажный помогите бой разобрать...   

    паузы в интро разобрать легко, а далее вроде как слышится обычная шестерка... но при исполнении начинаю жутко сомневаться... никак разобраться не могу... помогите плиз:
    Аккорды эти:
    Группа: 7 Раса
    Песня: Корабль бумажный
    Строй: Drop D
    Подобрал: San Sanbl4

    +++++++++++++++++++++++++

    Intro:
    E||----------------------------------------------|
    B||----------------------------------------------|
    G||-----0------0-----0----------0------0-------|
    D||---2----2-----2-----2-------3-----3---3----|
    A||-0--------0-----0-----0----3-----3-------3-|
    D||---------------------------3-----0-----------|

    E||-----------------------------------------x--|
    B||-----------------------------------------x--|
    G||----0------0-----0------------0--------0--|
    D||------2------2-----2---------3---------3--|
    A||--0-----0------0-----0-----3------3---3--|
    D||---------------------------3------0-----0--|
    // Перебор прежде чем лабать послушайте внимательно, главное услышать паузы.
    // И важно вконце перебора стоит аккорд [x x 0 3 3 0], так вот его необходимо сыграть
    // боем и с него перейти непосредственно к следующим аккордам в интро (см. ниже).

    A5 F5 D5
    +++++++++++++++++++++++++

    Куплет 1:

    A5 F5 D5
    Утро сонно смотрит в окно, словно не узнавая.
    A5 F5 D5
    Нас далеко унесло из осени в сердце
    A5 F5 D5
    мая. Не надо будить меня в этой стрёмной квартире,
    A5 F5 D5
    Дай мне проснуться в другом, весеннем улыбчивом мире!

    Предприпев:

    // Я точно не знаю, как играет Растич, но сам использую следующие октавы:
    D E G E
    D E G

    Припев:

    F5 G#5 C5 A5
    Пусть меня туда везет корабль бумажный!
    F5 G#5 C5 A5
    Мне в наивный детский мир так возвращаться важно!
    F5 G#5 C5 A5
    Я готов, как раньше, в кровь сбивать колени,
    F5 G#5
    Только бы вернуться домой.

    E||-----------------------------------------------x--|
    B||-----------------------------------------------x--|
    G||-----0-------0-----0---------------0---------0--|
    D||---2----2------2-----2----------3------------3--|
    A||-0--------0-------0-----0-----3---------3---3--|
    D||-----------------------------3---------0------0--|

    // Последний аккорд также как в интро боем, затем проигрыш аккордами:

    A5 F5 D5

    Куплет 2:

    Мимо своих сложных обид, словно разрушенных зданий...
    Нет, уже ничего не болит у меня от воспоминаний,
    Зла, что ты мне принесла, и моих защитных реакций.
    Влагой с моих глаз пелена от смеха, мне не с кем здесь драться.

    Предприпев:

    Припев:

    F5 G#5 C5 A5
    Пусть меня туда везет корабль бумажный!
    F5 G#5 C5 A5
    Мне в наивный детский мир так возвращаться важно!
    F5 G#5 C5 A5
    Я готов, как раньше, в кровь сбивать колени,
    F5 G#5
    Только бы вернуться
    F5 G#5
    Только бы вернуться
    A5 F5
    домой домой
    A5 F5
    домой домой.

    Outro:

    A5 E5 F5 G5

    // В outro Растич поет, то "Домой", то напевает "Ла-ла-ла". Слушайте квартирник поймете.

    +++++++++++++++++++++++++++++++++

    //Расшифровка аккордов:
    ----------------------
    Аккорд | Струна ( E H G D A D)
    ----------------------
    A5 |/x x 9 7 7 7/
    F5 |/x x 5 3 3 3/
    D5 |/x x 7 7 0 0/
    G#5 |/x x 8 6 6 6/
    C5 |/x x 12 10 10 10/
    E5 |/x x 4 2 2 2/
    G5 |/x x 7 5 5 5/
    ----------------------
    Октавы:
    ----------------------
    D |/x x 7 x 5 x/
    E |/x x 9 x 7 x/
    G |/x x 12 x 10 x/

    +++++++++++++++++++++++++++++++++


    Аудиозапись по этим аккордам можно послушать отсюда: http://ifolder.ru/5840382

    Заранее спасибо за помощь

    • 0

About Me